SHARE
TWEET

a few unfinished Ninet tabs

a guest May 24th, 2019 76 Never
Not a member of Pastebin yet? Sign Up, it unlocks many cool features!
  1. Project blue book
  2.  
  3. -------------------------0-----------------------------------------------------
  4. -1---------------------------0-------------------------------------------------
  5. -----0---------0-------0---------0---------------------------------------------
  6. -------2---0^2---2---2-------------2-------------------------------------------
  7. -3-3---------------0-------0---0-----0-----------------------------------------
  8. -------------------------------------------------------------------------------
  9.  
  10. -------------------------------------------------------------------------------
  11. -3---5---7---8---7---8---5---5---5-----------------0---------------------------
  12. ---0---0---0---0---0---0---0---0---0---2---2---2--------1---1---1---1----------
  13. -----------------------------------------0---0---0---0----0---0---0---0--------
  14. -2---3---5---7---5---7---3---3---3---------------------------------------------
  15. ---------------------------------------1---1---1--------0---0---0---0----------
  16.  
  17. ---------------------------0-----------------------------0--------------------
  18. --------3--------------------0-0---------------3----------3---------1---------
  19. ----0-----------0------0------0-0------0-----------0--------------0------0----
  20. ---0---0---0-0^2------2---2--------0^2---0---0---0----0--------0^2----0^2-2---
  21. -------------------0-----------------------2-----------------3-------------0--
  22. -3--------------------------------------------------------------------------3-
  23.  
  24.    G AM7 B7 C
  25. ---3--0--0--0---
  26. ---3--1--3--1---
  27. ---0--0--0--0---
  28. ---0--2--0--2---
  29. ---2--0--2--3---
  30. ---3------------
  31.  
  32. ___________________________________
  33. Tape:
  34.  
  35. Capo on 3
  36.  
  37. ----------------------------------------------------------------------------------------
  38. -----0------3------------5-----3-------------------0----------------1-----0-------------
  39. ---0-----0-----0------0-0---0-----0----------2--------------------0----0----------------
  40. --2-2---2--2--2---2----4---4--4----4---0---2----2------2---------0-0--0--0--0-----------
  41. -3-----3--3--3---3---0----0--0---0---0----0-0--0-0----0--0------2----2--2--2-0-2--------
  42. -----------------------------------------2----2------2--2-------------------------------
  43.  
  44. "you really wish that you could just take a shiny plate of steel
  45. and slam it into your uncle so that you'd have an excuse to feel
  46. to shout to scream
  47. those fucking mannequin heads bobblin up and down to the rhythm all the pages the paper cut that pulled the fingers and ears in the correction of speech to suppression of ideas the suppression of my thoughts of aggression thoughts of aggression
  48. ohhh take me back i'm growing old already
  49. my veins are pumpin faster
  50. my fingers are no longer steady
  51. i dont feel afraid
  52. but i'm afraid that when it comes it will stick
  53. the clock keeps on turning
  54. but i'm no longer hearing the tick
  55.  
  56. you were always hypersensitive look at yourself you're writing a song about us again along without it without the words you can even find them
  57. you're stuck on the thoughts and not what's behind them
  58. your cathose(??) and pathetic looks and you know that they care what if they're scared the unintelligent intellectual oh why can't they see
  59.  
  60. take me back i'm growing old already
  61. my veins are pumpin faster
  62. my fingers are no longer steady
  63. i dont feel afraid
  64. but i'm afraid that when it comes it will stick
  65. the clock keeps on turning
  66. but i'm no longer hearing the tick tock tick tock tick tock tick tock tick tock tick tock tick tock tick tock
  67.  
  68. take me back i'm growing old already
  69. my veins are pumpin faster
  70. my fingers are no longer steady
  71. i dont feel afraid but i'm afraid that when it comes it il stick
  72. the clock keeps on turning but i'm no longer hearing the tick tock
  73.  
  74. Outro:
  75. -------------------------------------------------------------------------------------------------------------------
  76. -------------------------------------------------------------------------------------------------------------------
  77. -2-1-4-3---------------------------------------------------------------------------------------------------------------
  78. -4-4-4-4---------------------------------------------------------------------------------------------------------------
  79. -4-4-4-4---------------------------------------------------------------------------------------------------------------
  80. -2-2-2-2---------------------------------------------------------------------------------------------------------------
  81.  
  82. ___________________________________
  83. Gibor
  84.  
  85. Capo 3rd fret
  86.  
  87.  Em Em/G Am Am11 C6 Bb6 C62 Am9 Am92 F  Dm C7  E5
  88. -0--0----0--0----0------0----0----0--1--1--0---0--
  89. -0--0----1--1----0------4----0----7--1--3--0---0--
  90. -0--0----2--2----2--0---2----5----5--2--2--0---x--
  91. -2--2----2--1----4--2---4----7----7--3--0--2---2--
  92. -2--2----0--0----3--1---3----6----6--3-----3---2--
  93. -0--3------------0------0----0----0--1---------0--
  94. Made up some of the chord names
  95.  
  96.        Em Em+G   Am
  97. Ani nish-enet alecha
  98.         Am11          Em
  99. Kshe'etsli kvar ein makom
  100.                      Em+G   Am
  101. Atta mechil vecholets et na'alai
  102.     Am11     Em
  103. Na'alai haktanot
  104.     C6    Bb6     Em
  105. Mehayom haze she'avar
  106.  
  107.  
  108.           Em+G  Am
  109. Ani nish-enet alecha
  110.          Am11         Em
  111. Kshe'ein li koach ledaber
  112.                              Em+G
  113. Atta mechil u'mechaber li et halev
  114.                Am     Am11       Em
  115. Chaticha, chaticha acharei shenishbar
  116.     C6    Bb6     Em
  117. Mehayom haze she'avar
  118.  
  119.  
  120.    Em                   C7
  121. Yatsati haloch bli lehash-ir
  122.      Am9  C6        Em
  123. Perurim laderech chazor
  124.      Em                  C7
  125. Ve'eize mazal besof kol yom
  126.      Am9 C6  Em
  127. Mechake li gibor
  128.      Am      Em
  129. Mechake li gibor
  130.     Am9   C6      Em
  131. Mehayom haze she'avar
  132.  
  133.  
  134.        Em Em+G   Am
  135. Ani nish-enet alecha
  136.      Am9       Em
  137. Kshe'ein li margoa
  138.                   Em+G                Am
  139. Banefesh hazo haptsua Atta mechil veyodea
  140.    Am9     Em
  141. Et kol sodotai
  142.     C6    Bb6     Em
  143. Mehayom haze she'avar
  144.  
  145. Yatsati haloch bli lehash-ir
  146. Perurim laderech chazor
  147. Ve'eize mazal besof kol yom
  148. Mechake li gibor
  149. Mehayom haze she'avar
  150.  
  151.      F
  152. Ha'einaim shelcha hatovot mesaprot
  153.      Dm          Am
  154. Shehakol ihiye beseder
  155.          Em             C  
  156. Atta yaffe vemeniach yadcha al yadi
  157.     Am92    C62     Em
  158. Venoshem beyachad itti
  159.  
  160. Em C Am9 Am92 C6 C62 Em x2
  161.  
  162.     Am       Em  Am9 C6 Em
  163. Mechake li gibor
  164.  
  165. ___________________________________
  166. Temporary Satisfaction
  167. -------------------------------------------
  168. ------------------------------------------0-
  169. ---0--0--0--0--0---0--0--0--0--0----4----4--
  170. --7--7--7--7--7-7-7--7--7--7--7-7--5-5--5---
  171. -7--7--7--7--7---5--5--5--5--5----3--------
  172. ---------------------------------------3----
  173.  
  174. ___________________________________
  175. Tagid Li Lama (from memory)
  176.  
  177. ------------------------------------------------------------------------------
  178. ---5-5-7-8--8---5-5-7-8-5-3-5---3-3-5-7-7-7-7^8-7-5-3-5-----------------------
  179. ------------------------------------------------------------------------------
  180. ------------------------------------------------------------------------------
  181. ------------------------------------------------------------------------------
  182. ------------------------------------------------------------------------------
  183.  
  184.  
  185. ------------------------------------------------------------------------------
  186. ----5-5-7-8-8-/10-10/12-10-8-7-5-3-5-7----3-3-5-7-7-7-7^8-7-5-3-5--3-^5^3-2---
  187. ------------------------------------------------------------------------------
  188. ------------------------------------------------------------------------------
  189. ------------------------------------------------------------------------------
  190. ------------------------------------------------------------------------------
RAW Paste Data
We use cookies for various purposes including analytics. By continuing to use Pastebin, you agree to our use of cookies as described in the Cookies Policy. OK, I Understand
 
Top