SHARE
TWEET

Canon Rock Tabs

mattzab Feb 13th, 2012 62,673 Never
Not a member of Pastebin yet? Sign Up, it unlocks many cool features!
  1. Canon Rock Tabs
  2.  
  3.  
  4.  
  5. Duration Legend
  6. ---------------
  7. W - whole
  8. H - half
  9. Q - quarter
  10. E - 8th
  11. S - 16th
  12. T - 32nd
  13. X - 64th
  14. . - note dotted
  15. |-n-|  - n-tuplets
  16.  
  17.  
  18. Tablature Legend
  19. ----------------
  20. L - tied note
  21. x - dead note
  22. g - grace note
  23. (n) - ghost note
  24. > - accentuded note
  25. NH - natural harmonic
  26. AH - artificial harmonic
  27. TH - tapped harmonic
  28. SH - semi harmonic
  29. PH - pitch harmonic
  30. h - hammer on
  31. p - pull off
  32. b - bend
  33. br - bendRelease
  34. pb - preBend
  35. pbr - preBendRelease
  36. brb - bendReleaseBend
  37. \n/ - tremolo bar dip
  38. \n - tremolo bar dive
  39. -/n - tremolo bar Release up
  40. /n\ - tremolo bar inverted dip
  41. /n - tremolo bar return
  42. -\n - tremolo bar Release down
  43. S - shift slide
  44. s - legato slide
  45. / -  slide into from below or out of upwards
  46. \ -  slide into from above or out of downwards
  47. ~ - vibrato
  48. W - wide vibrato
  49. tr - trill
  50. TP - tremolo picking
  51. T - tapping
  52. S - slap
  53. P - pop
  54. < - fade in
  55. ^ - brush up
  56. v - brush down
  57.  
  58.  
  59.  
  60.  
  61.  
  62.  
  63. ­µ­y 1
  64.      W                   W                   W                
  65. E||-------------------|-------------------|-------------------|
  66. B||-------------------|-------------------|-------------------|
  67. G||-------------------|-------------------|-------------------|
  68. D||-------------------|-------------------|-------------------|
  69. A||-------------------|-------------------|-------------------|
  70. E||-------------------|-------------------|-------------------|
  71.  
  72.  
  73.   W                   W                   W                   W                
  74. -------------------|-------------------|-------------------|-------------------|
  75. -------------------|-------------------|-------------------|-------------------|
  76. -------------------|-------------------|-------------------|-------------------|
  77. -------------------|-------------------|-------------------|-------------------|
  78. -------------------|-------------------|-------------------|-------------------|
  79. -------------------|-------------------|-------------------|-------------------|
  80.  
  81.  
  82.   W                    H          H             H          H          
  83. -------------------|------------------------|------------------------|
  84. -------------------|--19~--------17~--------|--15~--------14~--------|
  85. -------------------|------------------------|------------------------|
  86. -------------------|------------------------|------------------------|
  87. -------------------|------------------------|------------------------|
  88. -------------------|------------------------|------------------------|
  89.  
  90.  
  91.    H          H             H          Q      E   E  
  92. ------------------------|----------------------------|
  93. --12~--------10~--------|--12~--------14~----15--17--|
  94. ------------------------|----------------------------|
  95. ------------------------|----------------------------|
  96. ------------------------|----------------------------|
  97. ------------------------|----------------------------|
  98.  
  99.  
  100.                       |---3---|                                        
  101.    H          E   E   S   S   S  E      Q.       S   S  E   E   E   E  
  102. --14~------------15--14h-15p-14-----|----------------------14--17--19--|
  103. -------------17-----------------17--|--15~------17p-15-14--------------|
  104. ------------------------------------|----------------------------------|
  105. ------------------------------------|----------------------------------|
  106. ------------------------------------|----------------------------------|
  107. ------------------------------------|----------------------------------|
  108.  
  109.  
  110.        |--3--|                  |--3--|      
  111.    E   S  S  S  E   E   E   E   S  S  S  E  
  112. --15--14-15-14-----15--14-------------------|
  113. ---------------17----------17--15-17-15-----|
  114. ----------------------------------------14--|
  115. --------------------------------------------|
  116. --------------------------------------------|
  117. --------------------------------------------|
  118.  
  119.  
  120.    E   E   E   E   T   T  T   T  T   T  T   T  T   T  T   T  T   T  T   T  
  121. --------------------------------------------------------------------------|
  122. --------------15--14h-15-14h-15-14h-15-14h-15-14h-15-14h-15-14h-15-14h-15-|
  123. --16--14--12--------------------------------------------------------------|
  124. --------------------------------------------------------------------------|
  125. --------------------------------------------------------------------------|
  126. --------------------------------------------------------------------------|
  127.  
  128.  
  129.        PM PM       PM PM         PM PM       PM PM         PM PM    PM    PM  
  130.   Q    E  E  E  E  E  E     Q    E  E  E  E  E  E     Q    E  E  E  E  E  E  
  131. -------------------------|-------------------------|-------------------------|
  132. -------------8--7--------|-------------5--7--------|-------------2-----3-----|
  133. --7----------------------|-------------------------|--4----------------------|
  134. --7----------------------|--7----------------------|--4----------------------|
  135. --5----5--5--------5--5--|--7----------------0--0--|--2----2--2-----2-----2--|
  136. -------------------------|--5----5--5--------------|-------------------------|
  137.  
  138.  
  139.        PM PM    PM    PM         PM PM PM                  PM PM              
  140.   Q    E  E  E  E  E  E     Q    E  E  E  Q     E     Q    E  E  E  E  E  E  
  141. -------------------------|-------------------------|-------------------------|
  142. -------------------------|-------------------------|-------------8--7--5-----|
  143. -------------------------|----------------4S----6--|--7-------------------7--|
  144. --4----------2-----4-----|--5-------------5S----7--|--7----------------------|
  145. --4----------2-----4-----|--5----------------------|--5----5--5--------------|
  146. --2----2--2--0--0--2--2--|--3----3--3--3-----------|-------------------------|
  147.  
  148.  
  149.        PM PM                       PM PM                
  150.   Q    E  E  E   E   E  E     Q    E  E  E   E   E  E  
  151. ---------------------------|---------------------------|
  152. ---------------------------|---------------------------|
  153. -------------4S--6h--7--6--|-------------6S--7h--9--7--|
  154. --5------------------------|--7------------------------|
  155. --5------------------------|--7------------------------|
  156. --3----3--3----------------|--5----5--5----------------|
  157.  
  158.  
  159.        PM PM       PM PM         PM PM       PM PM         PM PM    PM    PM  
  160.   Q    E  E  E  E  E  E     Q    E  E  E  E  E  E     Q    E  E  E  E  E  E  
  161. -------------------------|-------------------------|-------------------------|
  162. -------------8--7--------|-------------5--7--------|-------------2-----3-----|
  163. --7----------------------|-------------------------|--4----------------------|
  164. --7----------------------|--7----------------------|--4----------------------|
  165. --5----5--5--------5--5--|--7----------------0--0--|--2----2--2-----2-----2--|
  166. -------------------------|--5----5--5--------------|-------------------------|
  167.  
  168.  
  169.        PM PM    PM    PM         PM PM PM                  PM PM              
  170.   Q    E  E  E  E  E  E     Q    E  E  E  Q     E     Q    E  E  E  E  E  E  
  171. -------------------------|-------------------------|-------------------------|
  172. -------------------------|-------------------------|-------------8--7--5-----|
  173. -------------------------|----------------4S----6--|--7-------------------7--|
  174. --4----------2-----4-----|--5-------------5S----7--|--7----------------------|
  175. --4----------2-----4-----|--5----------------------|--5----5--5--------------|
  176. --2----2--2--0--0--2--2--|--3----3--3--3-----------|-------------------------|
  177.  
  178.  
  179.        PM PM                       PM PM PM                                  
  180.   Q    E  E  E   E   E  E     Q    E  E  E    Q.          W                  
  181. ---------------------------|--------------------------|---------------------|
  182. ---------------------------|--------------------------|--19~----------------|
  183. -------------4S--6h--7--6--|----------------<>6~------|---------------------|
  184. --5------------------------|--7-----------------------|---------------------|
  185. --5------------------------|--7-----------------------|---------------------|
  186. --3----3--3----------------|--5----5--5--5------------|---------------------|
  187.  
  188.  
  189.                                                                       PM  PM  
  190.    H         H            H         E   Q.           H          Q     E   E  
  191. ----------------------|--------------------------|---------------------------|
  192. --17\-----------------|--15~-----------15br------|--14~----------------------|
  193. ----------------------|--------------------------|-------------14------------|
  194. ----------------------|--------------------------|-------------------12--12--|
  195. ----------------------|--------------------------|---------------------------|
  196. ----------------------|--------------------------|---------------------------|
  197.  
  198.  
  199.               |-----3-----|                              
  200.     H         Q     Q     Q        Q     Q     H          
  201. -------------------------------|-------------------------|
  202. -------------------------------|--------15---------------|
  203. --/16~--------L----14----12----|--14----------11~--------|
  204. -------------------------------|-------------------------|
  205. -------------------------------|-------------------------|
  206. -------------------------------|-------------------------|
  207.  
  208.  
  209.                |-----3-----|                                
  210.     H          Q     Q     Q        H.             E    E  
  211. --------------------------------|--------------------------|
  212. --------------------------------|--14b------------15S--17--|
  213. --/16~--------16----14----12----|--------------------------|
  214. --------------------------------|--------------------------|
  215. --------------------------------|--------------------------|
  216. --------------------------------|--------------------------|
  217.  
  218.  
  219.    H         E   Q.            H.            Q        H         E   Q.        
  220. --14~-----------14pbr------|----------------------|---------------------------|
  221. ---------------------------|--17~-----------------|--15~-----------15pbr------|
  222. ---------------------------|----------------------|---------------------------|
  223. ---------------------------|----------------------|---------------------------|
  224. ---------------------------|----------------------|---------------------------|
  225. ---------------------------|----------------------|---------------------------|
  226.  
  227.  
  228.    Q     Q     Q     Q        Q      Q     Q     Q      
  229. --------14----17~---------|--19~----17----15----17b----|
  230. --14----------------------|----------------------------|
  231. --------------------------|----------------------------|
  232. --------------------------|----------------------------|
  233. --------------------------|----------------------------|
  234. --------------------------|----------------------------|
  235.  
  236.  
  237.    Q      Q     Q     Q        Q      Q     Q     Q    
  238. --17~----15----14----17----|--19~----17----15----19----|
  239. ---------------------------|---------------------------|
  240. ---------------------------|---------------------------|
  241. ---------------------------|---------------------------|
  242. ---------------------------|---------------------------|
  243. ---------------------------|---------------------------|
  244.  
  245.  
  246.    W                       Q    Q    Q    Q       H         Q    Q    
  247. --19pbr~----------------|----------------------|----------------------|
  248. ------------------------|----------------------|----------------------|
  249. ------------------------|--7----6----7---------|-----------------6----|
  250. ------------------------|----------------------|--7~--------9---------|
  251. ------------------------|-----------------9----|----------------------|
  252. ------------------------|----------------------|----------------------|
  253.  
  254.  
  255.        PM PM                                                            
  256.                                                      |--3--|            
  257.   Q    E  E  Q    Q        W                    Q    E  E  E  Q    Q    
  258. -----------------------|---------------------|--------------------------|
  259. ------------------7----|--10b----------------|--8----7--8--7-------8----|
  260. --7----6--6--7---------|---------------------|----------------9---------|
  261. -----------------------|---------------------|--------------------------|
  262. -----------------------|---------------------|--------------------------|
  263. -----------------------|---------------------|--------------------------|
  264.  
  265.  
  266.                                                           PM PM PM PM          
  267.   E  E  E  E  H            Q    Q    Q    Q         Q     E  E  E  E    Q      
  268. ------------------------|----------------------|------------------------------|
  269. --7---------------------|----------------------|------------------------------|
  270. -----9--7---------------|-----------------7----|--<>6b------------------------|
  271. -----------9--7~--------|--9----7----5---------|----------7-------------------|
  272. ------------------------|----------------------|-------------7--5--4----------|
  273. ------------------------|----------------------|----------------------<>5~----|
  274.  
  275.  
  276.   Q    Q    Q    Q       H         Q    Q       E  E  E   E    E   E   E   E  
  277. ----------------------|----------------------|--------7--10S--14--10----------|
  278. ----------------------|----------------------|-----7------------------12------|
  279. --7----6----7---------|-----------------6----|--7-------------------------11--|
  280. ----------------------|--7~--------9---------|--------------------------------|
  281. -----------------9----|----------------------|--------------------------------|
  282. ----------------------|----------------------|--------------------------------|
  283.  
  284.  
  285.                                        |--3--|            
  286.    Q.        S   S  Q     Q       Q    E  E  E  Q    Q    
  287. -------------------------------|--------------------------|
  288. --10b~------10S-12-10~---------|--8----7--8--7-------8----|
  289. -------------------------------|----------------9---------|
  290. -------------------------------|--------------------------|
  291. -------------------------------|--------------------------|
  292. -------------------------------|--------------------------|
  293.  
  294.  
  295.   Q      Q     Q     Q        E   E   E   E   E   E   E   E  
  296. --------------10----14----|--15--14--12----------------------|
  297. --7S----10----------------|--------------15--14--12----------|
  298. --------------------------|--------------------------14--12--|
  299. --------------------------|----------------------------------|
  300. --------------------------|----------------------------------|
  301. --------------------------|----------------------------------|
  302.  
  303.  
  304.    E   E   E   E   E   E   Q    
  305. --------------------------------|
  306. --------------------------------|
  307. --18--16--14--------------------|
  308. --------------17--16--14S--7----|
  309. --------------------------------|
  310. --------------------------------|
  311.  
  312.  
  313.                   |----3---|                    
  314.   S  S  S S  S S  E    E   E   S  S  S  S   E  
  315. ---------------9-12S--17--12-------------------|
  316. ------------10----------------14---------------|
  317. ----------9----------------------14------------|
  318. -------11---------------------------14---------|
  319. --7-12---------------------------------12S-16--|
  320. -----------------------------------------------|
  321.  
  322.  
  323.                |-----5-----|                                              
  324.    S  S  S  S  S  S  S  S  S  Q     Q        Q      E   E   Q      E   E  
  325. --21-17-------17-12----------------------|--17~----14--15--17~----14--15--|
  326. --------17----------14-------------------|--------------------------------|
  327. -----------18----------14----------------|--------------------------------|
  328. --------------------------14-------------|--------------------------------|
  329. -----------------------------12~---------|--------------------------------|
  330. -----------------------------------------|--------------------------------|
  331.  
  332.  
  333.    E   E   E   E   E   E   E   E      Q      E   E   Q      E   E  
  334. --17----------------------14--15--|--14~------------14~------------|
  335. --------------14--15--17----------|---------15--17-----------------|
  336. ------14--16----------------------|--------------------------------|
  337. ----------------------------------|------------------------16--17--|
  338. ----------------------------------|--------------------------------|
  339. ----------------------------------|--------------------------------|
  340.  
  341.  
  342.    E   E   E   E   E   E   E   E      Q      E   E   Q      E   E  
  343. ----------------------------------|--------------------------------|
  344. ----------------------15--14--15--|--------------------------------|
  345. --14--16--14------14--------------|---------16--14-----------------|
  346. --------------17------------------|--17~------------17~----16--14--|
  347. ----------------------------------|--------------------------------|
  348. ----------------------------------|--------------------------------|
  349.  
  350.  
  351.    E   E   E   E   E   E   E   E      Q      E   E   Q      E   E  
  352. ----------------------------------|--------------------------------|
  353. ----------------------------------|------------------------14--15--|
  354. --------------------------14--16--|---------16--14--16~------------|
  355. --16--14------14--16--17----------|--17~---------------------------|
  356. ----------17----------------------|--------------------------------|
  357. ----------------------------------|--------------------------------|
  358.  
  359.  
  360.    E   E   E   E   E   E   E   E      Q      E   E   Q      E   E  
  361. ----------------------14--15--17--|--14~------------14~------------|
  362. ----------14--15--17--------------|---------15--17---------17--15--|
  363. --14--16--------------------------|--------------------------------|
  364. ----------------------------------|--------------------------------|
  365. ----------------------------------|--------------------------------|
  366. ----------------------------------|--------------------------------|
  367.  
  368.  
  369.    E   E   E   E   Q      E   E      Q      E   E   Q      E   E  
  370. ---------------------------------|--------------------------------|
  371. --17--14--15--17--17b----15--14--|--15~--------14--15~------------|
  372. ---------------------------------|---------16---------------------|
  373. ---------------------------------|------------------------16--17--|
  374. ---------------------------------|--------------------------------|
  375. ---------------------------------|--------------------------------|
  376.  
  377.  
  378.    E   E   E   E   E   E   E   E      Q      E   E   Q      E   E  
  379. ----------------------------------|--------------------------------|
  380. ----------------------15--14--15--|---------15--14-----------------|
  381. --14--16--14------14--------------|--16~------------16~----14------|
  382. --------------17------------------|----------------------------17--|
  383. ----------------------------------|--------------------------------|
  384. ----------------------------------|--------------------------------|
  385.  
  386.  
  387.    E   E   E   E   E   E   E   E      Q      E   E   Q      E   E  
  388. ----------------------------------|--------------------------------|
  389. --------------------------14--15--|---------15--14--15~----14------|
  390. --14--------------14--16----------|--16~-----------------------16--|
  391. ------17--16--17------------------|--------------------------------|
  392. ----------------------------------|--------------------------------|
  393. ----------------------------------|--------------------------------|
  394.  
  395.  
  396.                                                       PM PM  
  397.    E   E   E   E   E   E   E   E      H         E  E  E  E  
  398. ----------------------------------|-------------------------|
  399. --14--15--17--15--14--15------14--|--15~--------8--7--------|
  400. --------------------------16------|-------------------------|
  401. ----------------------------------|-------------------------|
  402. ----------------------------------|-------------------5--5--|
  403. ----------------------------------|-------------------------|
  404.  
  405.  
  406.        PM PM       PM PM         PM PM    PM    PM         PM PM    PM    PM  
  407.   Q    E  E  E  E  E  E     Q    E  E  E  E  E  E     Q    E  E  E  E  E  E  
  408. -------------------------|-------------------------|-------------------------|
  409. -------------5--7--------|-------------2-----3-----|-------------------------|
  410. -------------------------|--4----------------------|-------------------------|
  411. --7----------------------|--4----------------------|--4----------2-----4-----|
  412. --7----------------0--0--|--2----2--2-----2-----2--|--4----------2-----4-----|
  413. --5----5--5--------------|-------------------------|--2----2--2--0--0--2--2--|
  414.  
  415.  
  416.        PM PM PM                  PM PM                     PM PM                
  417.   Q    E  E  E  Q     E     Q    E  E  E  E  E  E     Q    E  E  E   E   E  E  
  418. -------------------------|-------------------------|---------------------------|
  419. -------------------------|-------------8--7--5-----|---------------------------|
  420. ----------------4S----6--|--7-------------------7--|-------------4S--6h--7--6--|
  421. --5-------------5S----7--|--7----------------------|--5------------------------|
  422. --5----------------------|--5----5--5--------------|--5------------------------|
  423. --3----3--3--3-----------|-------------------------|--3----3--3----------------|
  424.  
  425.  
  426.    |---3---|   |---3---|   |---3---|   |---3---|                          
  427.    E   E   E   E   E   E   E   E   E   E   E   E      W                  
  428. --------------------------------------------------|----------------------|
  429. --------------------------------------14--15--17--|--17b~----------------|
  430. --------------14--16--18--14--16--18--------------|----------------------|
  431. --14--16--17--------------------------------------|----------------------|
  432. --------------------------------------------------|----------------------|
  433. --------------------------------------------------|----------------------|
  434.  
  435.  
  436.      H.            Q        H         E     Q.        
  437. ------------------------|-----------------------------|
  438. --<>17b-----------------|--15~-----------<>15brb------|
  439. ------------------------|-----------------------------|
  440. ------------------------|-----------------------------|
  441. ------------------------|-----------------------------|
  442. ------------------------|-----------------------------|
  443.  
  444.  
  445.                     PM  PM                              
  446.    H          Q     E   E        H         E   Q     E  
  447. ---------------------------|----------------------------|
  448. --14~----------------------|----------------------------|
  449. -------------14------------|--<>16~--------L--14----12--|
  450. -------------------12--12--|----------------------------|
  451. ---------------------------|----------------------------|
  452. ---------------------------|----------------------------|
  453.  
  454.  
  455.    Q     Q     H             S  S  S  S  S  S  S  S  S  S  S  S  S  S  S  S  
  456. -------------------------|--------------------------------------------------|
  457. --------15---------------|--------------12-12-12-12-14-14-14-14-15-15-15-15-|
  458. --14----------11~--------|--12-12-12-12-------------------------------------|
  459. -------------------------|--------------------------------------------------|
  460. -------------------------|--------------------------------------------------|
  461. -------------------------|--------------------------------------------------|
  462.  
  463.  
  464.                                        |-----5-----|                          
  465.    S  S  S  S  S  S  S  S  S  S  S  S  S  S  S  S  S     H.              Q    
  466. -----------14-15-17-15-14----------------------------|------------------------|
  467. --14-15-17----------------17-15-14----------14-15-17-|--17b~------------22----|
  468. -----------------------------------16-14-16----------|------------------------|
  469. -----------------------------------------------------|------------------------|
  470. -----------------------------------------------------|------------------------|
  471. -----------------------------------------------------|------------------------|
  472.  
  473.  
  474.    H            Q     Q        H         E   Q.        
  475. ---------------------------|---------------------------|
  476. --17pbr--------15----14----|--15~-----------15pbr------|
  477. ---------------------------|---------------------------|
  478. ---------------------------|---------------------------|
  479. ---------------------------|---------------------------|
  480. ---------------------------|---------------------------|
  481.  
  482.  
  483.    Q     Q     Q     Q        Q      Q     Q     Q    
  484. --------14----17~---------|--19~----17----15----19----|
  485. --14----------------------|---------------------------|
  486. --------------------------|---------------------------|
  487. --------------------------|---------------------------|
  488. --------------------------|---------------------------|
  489. --------------------------|---------------------------|
  490.  
  491.  
  492.    Q      Q     H              S  S  S  S  S  S  S  S  S  S  S  S  S  S  S  S  
  493. --17~----21----21b~--------|--19-15----------15-19-15-19-15----------15-19-15-|
  494. ---------------------------|--------15----15----------------15----15----------|
  495. ---------------------------|-----------16----------------------16-------------|
  496. ---------------------------|--------------------------------------------------|
  497. ---------------------------|--------------------------------------------------|
  498. ---------------------------|--------------------------------------------------|
  499.  
  500.  
  501.                                            PM    PM    PM        
  502.    S  S  S  S  S  S  S  S  H            E  E  E  E  E  E  E   E  
  503. --21-17-------21-17------------------|---------------------------|
  504. --------17----------17---------------|---------------------------|
  505. -----------18----------18S-9~--------|--7-----6-----7------------|
  506. -------------------------------------|-----0-----0-----0--4h--5--|
  507. -------------------------------------|---------------------------|
  508. -------------------------------------|---------------------------|
  509.  
  510.  
  511.                                      PM    PM    PM    PM  
  512.   E   E  E   E   E   E  E   E     E  E  E  E  E  E  E  E  
  513. -------------------------------|--------------------------|
  514. -------------------------------|--3--0--2--0--3--0--7--0--|
  515. ------------------------6S--2--|--------------------------|
  516. --7S--9--7p--6h--7h--9---------|--------------------------|
  517. -------------------------------|--------------------------|
  518. -------------------------------|--------------------------|
  519.  
  520.  
  521.             PM                                            
  522.      Q.     E  E  E  E   E      E  E   E  E  E  E   E  E  
  523. ----------------------------|-----------------------------|
  524. --<>10---------------7--10--|--12--0--10--0--8--0--12--0--|
  525. ------------6--7--9---------|-----------------------------|
  526. ----------------------------|-----------------------------|
  527. ----------------------------|-----------------------------|
  528. ----------------------------|-----------------------------|
  529.  
  530.  
  531.          |---3---|              
  532.    Q     E   E   E   Q.      E  
  533. --------------------------------|
  534. --10------------10--15~---------|
  535. ------------11------------------|
  536. --------12----------------------|
  537. --------------------------------|
  538. --------------------------------|
  539.  
  540.  
  541.    S  S  S  S  S  S  S  S  S  S  S  S  S  S  S  S  
  542. --------------------------------------------------|
  543. --15-12----------------12-15-12----------------12-|
  544. --------12----------12----------12----------12----|
  545. -----------12----12----------------12----12-------|
  546. --------------14----------------------14----------|
  547. --------------------------------------------------|
  548.  
  549.  
  550.                                           PM    PM    PM        
  551.    S  S  S  S  S  S  S  S H            E  E  E  E  E  E  E   E  
  552. ------------------------------------|---------------------------|
  553. --17-14-------17-14-----------------|---------------------------|
  554. --------14----------14--------------|--7-----6-----7------------|
  555. -----------14----------14-7~--------|-----0-----0-----0--4h--5--|
  556. ------------------------------------|---------------------------|
  557. ------------------------------------|---------------------------|
  558.  
  559.  
  560.                                      PM    PM    PM    PM  
  561.   E   E  E   E   E   E  E   E     E  E  E  E  E  E  E  E  
  562. -------------------------------|--------------------------|
  563. -------------------------------|--3--0--2--0--3--0--7--0--|
  564. ------------------------6S--2--|--------------------------|
  565. --7S--9--7p--6h--7h--9---------|--------------------------|
  566. -------------------------------|--------------------------|
  567. -------------------------------|--------------------------|
  568.  
  569.  
  570.      W                     E  E   E  E  E  E   E  E  
  571. -----------------------|-----------------------------|
  572. --<>10b----------------|--12--0--10--0--8--0--12--0--|
  573. -----------------------|-----------------------------|
  574. -----------------------|-----------------------------|
  575. -----------------------|-----------------------------|
  576. -----------------------|-----------------------------|
  577.  
  578.  
  579.    Q      S  S  S  S  S  S  S  S  S  S  S  S  
  580. ------------------10-14-17-14----------14-17-|
  581. --10~----------10-------------15----15-------|
  582. ------------11-------------------14----------|
  583. ---------12----------------------------------|
  584. ---------------------------------------------|
  585. ---------------------------------------------|
  586.  
  587.  
  588.    S  S  S  S  S  S  S  S  S  S  S  S  S  S  S  S     H.             Q    
  589. --19-15----------15-19-15-19-15----------15-19-15-|--19b~-----------------|
  590. --------15----15----------------15----15----------|-----------------------|
  591. -----------16----------------------16-------------|-----------------------|
  592. --------------------------------------------------|-----------------------|
  593. --------------------------------------------------|-----------------------|
  594. --------------------------------------------------|-----------------------|
  595.  
  596.  
  597.    Q      E   E   Q      E   E      E   E   E   E   E   E   E   E  
  598. --17~----14--15--17~----14--15--|--17----------------------14--15--|
  599. --------------------------------|--------------14--15--17----------|
  600. --------------------------------|------14--16----------------------|
  601. --------------------------------|----------------------------------|
  602. --------------------------------|----------------------------------|
  603. --------------------------------|----------------------------------|
  604.  
  605.  
  606.    Q      E   E   Q      E   E      E   E   E   E   E   E   E   E  
  607. --14~------------14~------------|----------------------------------|
  608. ---------15--17-----------------|----------------------15--14--15--|
  609. --------------------------------|--14--16--14------14--------------|
  610. ------------------------16--17--|--------------17------------------|
  611. --------------------------------|----------------------------------|
  612. --------------------------------|----------------------------------|
  613.  
  614.  
  615.    Q      E   E   Q      E   E      E   E   E   E   E   E   E   E  
  616. --------------------------------|----------------------------------|
  617. --------------------------------|----------------------------------|
  618. ---------16--14-----------------|--------------------------14--16--|
  619. --17~------------17~----16--14--|--16--14------14--16--17----------|
  620. --------------------------------|----------17----------------------|
  621. --------------------------------|----------------------------------|
  622.  
  623.  
  624.    Q      E   E   Q      E   E      E   E   E   E   E   E   E   E  
  625. --------------------------------|----------------------14--15--17--|
  626. ------------------------14--15--|----------14--15--17--------------|
  627. ---------16--14--16~------------|--14--16--------------------------|
  628. --17~---------------------------|----------------------------------|
  629. --------------------------------|----------------------------------|
  630. --------------------------------|----------------------------------|
  631.  
  632.  
  633.    Q      E   E   Q      E   E      E   E   E   E   Q      E   E  
  634. --14~------------14~------------|---------------------------------|
  635. ---------15--17---------17--15--|--17--14--15--17--17b----15--14--|
  636. --------------------------------|---------------------------------|
  637. --------------------------------|---------------------------------|
  638. --------------------------------|---------------------------------|
  639. --------------------------------|---------------------------------|
  640.  
  641.  
  642.    Q      E   E   Q      E   E      E   E   E   E   E   E   E   E  
  643. --------------------------------|----------------------------------|
  644. --15~--------14--15~------------|----------------------15--14--15--|
  645. ---------16---------------------|--14--16--14------14--------------|
  646. ------------------------16--17--|--------------17------------------|
  647. --------------------------------|----------------------------------|
  648. --------------------------------|----------------------------------|
  649.  
  650.  
  651.    Q      E   E   Q      E   E      E   E   E   E   E   E   E   E  
  652. --------------------------------|----------------------------------|
  653. ---------15--14-----------------|--------------------------14--15--|
  654. --16~------------16~----14------|--14--------------14--16----------|
  655. ----------------------------17--|------17--16--17------------------|
  656. --------------------------------|----------------------------------|
  657. --------------------------------|----------------------------------|
  658.  
  659.  
  660.    Q      E   E   Q      E   E      E   E   E   E   E   E   E   E  
  661. --------------------------------|----------------------------------|
  662. ---------15--14--15~----14------|--14--15--17--15--14--15------14--|
  663. --16~-----------------------16--|--------------------------16------|
  664. --------------------------------|----------------------------------|
  665. --------------------------------|----------------------------------|
  666. --------------------------------|----------------------------------|
  667.  
  668.  
  669.    W                 H           H.            Q       Q    Q    E   S  S Q    
  670. ------------------------------|---------------------|--------------------------|
  671. --15~-------------------------|---------------------|--------------------------|
  672. ------------------------------|---------------------|--------------------------|
  673. ------------------------------|--7~-----------------|--7----9----7h--9p-7-5----|
  674. ------------------------------|---------------------|--------------------------|
  675. ------------------------------|---------------------|--------------------------|
  676.  
  677.  
  678.   H.            Q       Q    Q    E   S  S Q       Q    Q    Q    Q    
  679. ---------------------|--------------------------|----------------------|
  680. ---------------------|--7----8----7h--8p-7------|----------------------|
  681. ---------------------|---------------------9----|--7----6----4----6----|
  682. --4~-----------------|--------------------------|----------------------|
  683. ---------------------|--------------------------|----------------------|
  684. ---------------------|--------------------------|----------------------|
  685.  
  686.  
  687.   H.            Q       Q    Q    Q    Q       W                  
  688. ---------------------|----------------------|--------------------|
  689. ---------------------|----------------------|--------------------|
  690. --7~-----------------|--7----6----4----5----|--6~----------------|
  691. ---------------------|----------------------|--------------------|
  692. ---------------------|----------------------|--------------------|
  693. ---------------------|----------------------|--------------------|
  694.  
  695.  
  696.      PM    PM    PM     PM             PM          PM        
  697.   E  E  E  E  E  E   E  E      E    E  E   E    E  E  E   E  
  698. ---------------------------|---------------------------------|
  699. ---------------------------|---------------------------------|
  700. --7-----6-----7-----11-----|--11S--14-----12S--11-----9S--6--|
  701. -----0-----0-----0------0--|-----------0-----------0---------|
  702. ---------------------------|---------------------------------|
  703. ---------------------------|---------------------------------|
  704.  
  705.  
  706.      PM    PM    PM     PM             PM          PM          
  707.   E  E  E  E  E  E   E  E      E    E  E   E    E  E   E    E  
  708. ---------------------------|-----------------------------------|
  709. ---------------------------|--------------------------14S--10--|
  710. --7-----6-----7-----11-----|--11S--14-----16S--14--------------|
  711. -----0-----0-----0------0--|-----------0-----------0-----------|
  712. ---------------------------|-----------------------------------|
  713. ---------------------------|-----------------------------------|
  714.  
  715.  
  716.    |---3---|   |---3--|  |---3--|  |--3--|  
  717.    E   E   E   E  E   E  E   E  E  E  E  E  
  718. --------------------------------------------|
  719. --12--12--10--12--8--12--7--10--8--7--------|
  720. --------------------------------------9--7--|
  721. --------------------------------------------|
  722. --------------------------------------------|
  723. --------------------------------------------|
  724.  
  725.  
  726.    |---3--|   |---3--|  |---3--|  |--3--|  
  727.    E   E  E   E  E   E  E  E   E  E  E  E  
  728. -------------------------------------------|
  729. --10--10--8--10--7--10---------------------|
  730. ------------------------9--7S--6-----------|
  731. ----------------------------------9--7--5--|
  732. -------------------------------------------|
  733. -------------------------------------------|
  734.  
  735.  
  736.   |--3--|  |--3--|  |--3--|  |--3--|  
  737.   E  E  E  E  E  E  E  E  E  E  E  E  
  738. --------------------------------------|
  739. -----------------------------5--7--8--|
  740. -----------4--6--7--4--6--7-----------|
  741. --4--5--7-----------------------------|
  742. --------------------------------------|
  743. --------------------------------------|
  744.  
  745.  
  746.   |--3--|  |--3--|                        
  747.   E  E  E  E  E  E   S S S  S  S S  S  S  
  748. -----------5--7--9--10-7-9-10-12-9-10-12-|
  749. --5--7--8--------------------------------|
  750. -----------------------------------------|
  751. -----------------------------------------|
  752. -----------------------------------------|
  753. -----------------------------------------|
  754.  
  755.  
  756.    S  S  S  S  S  S  S  S  S  S  S  S  S  S  S  S  
  757. --14-10----------10-14-10-14-10----------10-14-10-|
  758. --------10----10----------------10----10----------|
  759. -----------11----------------------11-------------|
  760. --------------------------------------------------|
  761. --------------------------------------------------|
  762. --------------------------------------------------|
  763.  
  764.  
  765.    S S  S S  S S  S S  S S  S S  S S  S S  
  766. --12-9---------9-12-9-14-9------12-9------|
  767. -------10---10-------------10--------10---|
  768. ----------9-------------------9---------9-|
  769. ------------------------------------------|
  770. ------------------------------------------|
  771. ------------------------------------------|
  772.  
  773.  
  774.    S S S S S S  S S  S S S S S S  S S    S S S S S S S S S S S S S S S S  
  775. --10-7-------7-10-7-10-7-------7-10-7-|--9-5-------5-9-5-5-2-----5-2-----|
  776. -------7---7-------------7---7--------|------7---7-----------2-------2---|
  777. ---------7-----------------7----------|--------6---------------2-------2-|
  778. --------------------------------------|----------------------------------|
  779. --------------------------------------|----------------------------------|
  780. --------------------------------------|----------------------------------|
  781.  
  782.  
  783.   S S S S S S S S  S S S S S S  S S  
  784. --7-3-------3-7-3-10-7-------7-10-7-|
  785. ------3---3------------8---8--------|
  786. --------4----------------7----------|
  787. ------------------------------------|
  788. ------------------------------------|
  789. ------------------------------------|
  790.  
  791.  
  792.    S  S  S  S  S  S  S  S  S  S  S  S  S  S  S  S  
  793. --14-10-------14-10-------15-10-------17-14-------|
  794. --------10----------10----------10----------15----|
  795. -----------11----------11----------11----------14-|
  796. --------------------------------------------------|
  797. --------------------------------------------------|
  798. --------------------------------------------------|
  799.  
  800.  
  801.    S  S  S  S  S  S  S  S  S  S  S  S  S  S  S  S  
  802. --19-15----------15-19-15-19-15----------15-19-15-|
  803. --------15----15----------------15----15----------|
  804. -----------16----------------------16-------------|
  805. --------------------------------------------------|
  806. --------------------------------------------------|
  807. --------------------------------------------------|
  808.  
  809.  
  810.    S  S  S  S  S  S  S  S  S  S  S  S  Q         Q      E   E   Q      E   E  
  811. --17-12--------------------------------------|--17~----13--15--17~----13--15--|
  812. --------14----17-14--------------------------|--------------------------------|
  813. -----------14-------14----18-14--------------|--------------------------------|
  814. -----------------------14-------14-----------|--------------------------------|
  815. -----------------------------------16-12~----|--------------------------------|
  816. ---------------------------------------------|--------------------------------|
  817.  
  818.  
  819.    E   E   E   E   E   E   E   E      Q      E   E   Q      E   E  
  820. --17----------------------13--15--|--13~------------13~------------|
  821. --------------14--15--17----------|---------15--17-----------------|
  822. ------14--15----------------------|--------------------------------|
  823. ----------------------------------|------------------------15--17--|
  824. ----------------------------------|--------------------------------|
  825. ----------------------------------|--------------------------------|
  826.  
  827.  
  828.    E   E   E   E   E   E   E   E      Q      E   E   Q      E   E  
  829. ----------------------------------|--------------------------------|
  830. ----------------------15--14--15--|--11~----15--13--11~------------|
  831. --14--15--14------14--------------|------------------------14--12--|
  832. --------------17------------------|--------------------------------|
  833. ----------------------------------|--------------------------------|
  834. ----------------------------------|--------------------------------|
  835.  
  836.  
  837.    E   E   E   E   E   E   E   E      Q      E   E   Q      E   E  
  838. ----------------------------------|------------------------12--13--|
  839. ----------------------11--14--15--|--11~----15--14--15~------------|
  840. --14--12--10--12--14--------------|--------------------------------|
  841. ----------------------------------|--------------------------------|
  842. ----------------------------------|--------------------------------|
  843. ----------------------------------|--------------------------------|
  844.  
  845.  
  846.    E   E   E   E   E   E   E   E      Q      E   E   Q      E   E  
  847. ----------------------13--15--17--|--13~------------13~------------|
  848. ----------14--15--17--------------|---------15--17---------17--15--|
  849. --14--15--------------------------|--------------------------------|
  850. ----------------------------------|--------------------------------|
  851. ----------------------------------|--------------------------------|
  852. ----------------------------------|--------------------------------|
  853.  
  854.  
  855.    E   E   E   E   Q      E   E      Q      E   E   Q      E   E  
  856. ---------------------------------|--------------------------------|
  857. --17--14--15--17--17b----15--14--|--15~--------14--15~------------|
  858. ---------------------------------|---------15---------------------|
  859. ---------------------------------|------------------------15--17--|
  860. ---------------------------------|--------------------------------|
  861. ---------------------------------|--------------------------------|
  862.  
  863.  
  864.    E   E   E   E   E   E   E   E      Q      E   E   Q      E   E  
  865. ----------------------------------|--------------------------------|
  866. ----------------------15--14--15--|--11~----15--13--11~------------|
  867. --14--15--14------14--------------|------------------------14--12--|
  868. --------------17------------------|--------------------------------|
  869. ----------------------------------|--------------------------------|
  870. ----------------------------------|--------------------------------|
  871.  
  872.  
  873.                                                             |---3---|  
  874.    E   E   E   E   E   E   E   E      Q      E   E   Q      E   E   E  
  875. ----------------------------------|------------------------------------|
  876. ----------------------11--14--15--|--11~----15--14--15~----------------|
  877. --14--12--10--12--14--------------|------------------------------------|
  878. ----------------------------------|------------------------------------|
  879. ----------------------------------|------------------------12--14--16--|
  880. ----------------------------------|------------------------------------|
  881.  
  882.  
  883.    |---3---|   |---3---|   |---3---|   |---3---|                      
  884.    E   E   E   E   E   E   E   E   E   E   E   E     W                
  885. --------------------------------------14--15--17--|-------------------|
  886. --------------------------14--15--17--------------|-------------------|
  887. --------------12--14--16--------------------------|-------------------|
  888. --12--14--16--------------------------------------|-------------------|
  889. --------------------------------------------------|-------------------|
  890. --------------------------------------------------|-------------------|
  891.  
  892.  
  893.    E   E   E   E   E   E   E   E      Q      E   E   Q      E   E  
  894. --17----------------------14--15--|--14~------------14~----14--15--|
  895. --------------14--15--17----------|---------15--17-----------------|
  896. ------14--16----------------------|--------------------------------|
  897. ----------------------------------|--------------------------------|
  898. ----------------------------------|--------------------------------|
  899. ----------------------------------|--------------------------------|
  900.  
  901.  
  902.                    |-----3-----|                   |-----3-----|    
  903.    E   E   E   E   Q     Q     Q        H          Q     Q     Q    
  904. --17--19--17--15--17----19----21----|--21b~--------L----21----19----|
  905. ------------------------------------|-------------------------------|
  906. ------------------------------------|-------------------------------|
  907. ------------------------------------|-------------------------------|
  908. ------------------------------------|-------------------------------|
  909. ------------------------------------|-------------------------------|
  910.  
  911.  
  912.    Q.       S   S   S   S   S   S   S  S   S   S  
  913. --17~------14h-17h-19p-17p-14h-17p-14------------|
  914. --------------------------------------17h-19p-17-|
  915. -------------------------------------------------|
  916. -------------------------------------------------|
  917. -------------------------------------------------|
  918. -------------------------------------------------|
  919.  
  920.  
  921.    S   S   S   S   S  S   S   S   S   S   S  S   S   S   S   S  
  922. ---------------------------------------------------------------|
  923. --19p-17p-15h-17p-15-------------------------------------------|
  924. ---------------------16h-19p-16p-14h-16p-14--------------------|
  925. --------------------------------------------16h-19p-16p-14h-16-|
  926. ---------------------------------------------------------------|
  927. ---------------------------------------------------------------|
  928.  
  929.  
  930.    |-------5-------|  |-------5-------|              
  931.    S   S   S   S   S  S   S   S   S   S   H          
  932. ----------------------------------------------------|
  933. ----------------------------------------------------|
  934. ----------------------------------------------------|
  935. --19p-16p-14h-16p-14--------------------------------|
  936. ---------------------19p-16p-14h-16p-14p-12~--------|
  937. ----------------------------------------------------|
  938.  
  939.  
  940.    Q      E   E   Q      E   E  
  941. --17~----14--15--17~----14--15--|
  942. --------------------------------|
  943. --------------------------------|
  944. --------------------------------|
  945. --------------------------------|
  946. --------------------------------|
  947.  
  948.  
  949.    |---3---|   |---3---|   |---3---|   |---3---|                          
  950.    E   E   E   E   E   E   E   E   E   E   E   E      W                  
  951. --18--18--15--18--14--18------18------18------18--|--19b~----------------|
  952. --------------------------17------15------14------|----------------------|
  953. --------------------------------------------------|----------------------|
  954. --------------------------------------------------|----------------------|
  955. --------------------------------------------------|----------------------|
  956. --------------------------------------------------|----------------------|
  957.  
  958.  
  959.   Q     E    E   E   E   E   E      H.              E   E  
  960. --L----19p--17------------------|--17b~------------17--15--|
  961. ----------------19--18--17--15--|--------------------------|
  962. --------------------------------|--------------------------|
  963. --------------------------------|--------------------------|
  964. --------------------------------|--------------------------|
  965. --------------------------------|--------------------------|
  966.  
  967.  
  968.    Q     S   S   S   S  S   S   S   S   S   S   S   S  
  969. --14----15h-17p-15p-14--------------------------------|
  970. -----------------------17p-15p-14S-12h-14h-15p-14p-12-|
  971. ------------------------------------------------------|
  972. ------------------------------------------------------|
  973. ------------------------------------------------------|
  974. ------------------------------------------------------|
  975.  
  976.  
  977.    S   S   S   S   S   S   S  S   S   S   S  S  S   S  S   S  
  978. --------------------------------------------------------------|
  979. --------------------------------------------------------------|
  980. --14p-12p-11h-12h-14p-12p-11S-9h-11h-12p-11p-9----------------|
  981. -----------------------------------------------12p-11p-9h-11h-|
  982. --------------------------------------------------------------|
  983. --------------------------------------------------------------|
  984.  
  985.  
  986.    S   S  S   S   S   S  S   S  Q     Q        H         Q     Q    
  987. -------------------------------------------|------------------17----|
  988. -------------------------------------------|--15~-------------------|
  989. -------------------------------------------|------------------------|
  990. --12p-11p-9h-11h-12p-11p-9h-11p-7~---------|------------------------|
  991. -------------------------------------------|------------------------|
  992. -------------------------------------------|------------------------|
  993.  
  994.  
  995.    H          Q     Q        H        Q     Q        Q     Q     Q     Q    
  996. --17b--------17----15----|--14-------------14----|--14----15----14----------|
  997. -------------------------|-----------------------|--------------------17----|
  998. -------------------------|-----------------------|--------------------------|
  999. -------------------------|-----------------------|--------------------------|
  1000. -------------------------|-----------------------|--------------------------|
  1001. -------------------------|-----------------------|--------------------------|
  1002.  
  1003.  
  1004.                PM PM  PM PM                                              
  1005.    Q     Q     E  E   E  E      H          S   S   S   S   S   S   S   S  
  1006. ----------------------------|--------------------------------------------|
  1007. --15----14----12--0--14--0--|--15~--------14h-15p-14h-15p-14h-15p-14h-15-|
  1008. ----------------------------|--------------------------------------------|
  1009. ----------------------------|--------------------------------------------|
  1010. ----------------------------|--------------------------------------------|
  1011. ----------------------------|--------------------------------------------|
  1012.  
  1013.  
  1014.             PM PM  PM PM  PM PM                                      
  1015.                                           |-----5-----|              
  1016.      Q      E  E   E  E   E  E      Q     S  S  S  S  S  Q     Q    
  1017. --------------------------------|--------17-12----------------------|
  1018. --<>15~----14--0--12--0--13--0--|--14----------14-------------------|
  1019. --------------------------------|-----------------14----------------|
  1020. --------------------------------|--------------------14-------------|
  1021. --------------------------------|-----------------------12~---------|
  1022. --------------------------------|-----------------------------------|
  1023.  
  1024.  
  1025.                                              |----3----|  
  1026.    H         Q     Q        H          Q     E    E    E  
  1027. ------------------17----|--17b--------17----15h--17p--15--|
  1028. --15~-------------------|---------------------------------|
  1029. ------------------------|---------------------------------|
  1030. ------------------------|---------------------------------|
  1031. ------------------------|---------------------------------|
  1032. ------------------------|---------------------------------|
  1033.  
  1034.  
  1035.    Q.      Q.      Q        W                     H          Q     Q    
  1036. --14------17------17----|--20b----------------|--19~--------19----21----|
  1037. ------------------------|---------------------|-------------------------|
  1038. ------------------------|---------------------|-------------------------|
  1039. ------------------------|---------------------|-------------------------|
  1040. ------------------------|---------------------|-------------------------|
  1041. ------------------------|---------------------|-------------------------|
  1042.  
  1043.  
  1044.    Q.       E    H            Q      E   Q      E   Q      
  1045. --21b------17~---L--------|--19S----17--17S----15--15S----|
  1046. --------------------------|-------------------------------|
  1047. --------------------------|-------------------------------|
  1048. --------------------------|-------------------------------|
  1049. --------------------------|-------------------------------|
  1050. --------------------------|-------------------------------|
  1051.  
  1052.  
  1053.    E   Q      E   Q     Q        Q.      E   E    E    E   E    
  1054. --14--14S----12--12-----------|--------------------------------|
  1055. ------------------------------|---------10--10S--12p--10S--8S--|
  1056. -----------------------14S----|--7-----------------------------|
  1057. ------------------------------|--------------------------------|
  1058. ------------------------------|--------------------------------|
  1059. ------------------------------|--------------------------------|
  1060.  
  1061.  
  1062.                      |--3--|                                  
  1063.   Q    E  E  E   E   S  S  S E     E   E   E   E   Q     Q    
  1064. --------------------------------|-----------------------------|
  1065. --7-------7--7h--8p--7h-8p-7----|-----------------------------|
  1066. -----------------------------9--|--7p--6p--4h--6h--7~---------|
  1067. --------------------------------|-----------------------------|
  1068. --------------------------------|-----------------------------|
  1069. --------------------------------|-----------------------------|
  1070.  
  1071.  
  1072.   E   E   E   E   Q      Q        Q     E   E   Q      E    E  
  1073. ------------------------------|------------17--17b----17p--15--|
  1074. ------------------------------|--15~---------------------------|
  1075. --7p--6p--4h--5h--6S----14----|--------------------------------|
  1076. ------------------------------|--------------------------------|
  1077. ------------------------------|--------------------------------|
  1078. ------------------------------|--------------------------------|
  1079.  
  1080.  
  1081.    Q     E   E   E    E    E   E      E    E   E    E   Q.      E  
  1082. --14~-------14--14h--15p--14------|--------------------------------|
  1083. ------------------------------17--|--15p--14--12h--14--15~---------|
  1084. ----------------------------------|--------------------------------|
  1085. ----------------------------------|--------------------------------|
  1086. ----------------------------------|--------------------------------|
  1087. ----------------------------------|--------------------------------|
  1088.  
  1089.  
  1090.    E    E   E    E   Q.       S   S     W                  
  1091. ------------------------------------|---------------------||
  1092. --15p--14--12h--13--14~------15S-17-|--15~----------------||
  1093. ------------------------------------|---------------------||
  1094. ------------------------------------|---------------------||
  1095. ------------------------------------|---------------------||
  1096. ------------------------------------|---------------------||
RAW Paste Data
We use cookies for various purposes including analytics. By continuing to use Pastebin, you agree to our use of cookies as described in the Cookies Policy. OK, I Understand
 
Top