Advertisement
Guest User

Astral Observatory [guitar arrangement]

a guest
Aug 7th, 2022
6
0
Never
Not a member of Pastebin yet? Sign Up, it unlocks many cool features!
text 2.93 KB | None | 0 0
  1. Astral Observatory Theme
  2. (Legend of Zelda Majora's Mask)
  3. Transcription by Andrew Weitzel (https://andrew.weitzel.tech)
  4.  
  5. You don't need to pick if you don't want to; just strum along with the chords,
  6. and be sure to linger on the note on the high e string, as that is gonna be the note
  7. that is the main melody of the song.
  8.  
  9. Standard tuning
  10.  
  11. Chords:
  12.  
  13. F BbMaj7 Bb6 Gm9 Em11 A7 Dm G F6sus2 fsus2#11 C7
  14.  
  15. -------5------5-------3------5--------5-----0------1---3-----1------1-----------0-----------
  16. -------6------3-------3------3--------3-----2------3---0-----3------0-----------1-----------
  17. -------5------3-------3------3--------3-----0------2---0-----0------0-----------3-----------
  18. -------7------3-------3------5--------4-----2------0---0-----3------3-----------2-----------
  19. --------------------------------------------0----------2------------------------3-----------
  20. -------------------------------------------------------3-----------------------------------
  21.  
  22. PROTIP: On that Em11 chord, use your index finger on the 4th fret note, use your middle finger for both
  23. 3rd fret notes, and play the 5th fret note with your pinky. It's kind of a tricky chord shape but you'll
  24. get it with a little practice.
  25.  
  26. The song:
  27.  
  28. Lick F BbMaj7 F BbMaj7
  29.  
  30. -------------------4----5-------7--5--------5----5--------5--5--------3-------------
  31. ----------5--6--8---------6-----------3-------------6-----------3-------------------
  32. ----5--7---------------------5-----------3-------------5-----------3----------------
  33. ------------------------7-------5--3--------3----7--------7--3--------3-------------
  34. ------------------------------------------------------------------------------------
  35. ------------------------------------------------------------------------------------
  36.  
  37. Gm9 Em11 A7 Dm G F6sus2 Fsus2#11
  38.  
  39. --5-------5--5--------5--0--------0--1-------1--3--------3--1--------1--1--------1-
  40. ----3-----------3-----------2-----------3----------0-----------3-----------0-------
  41. -------3-----------3-----------0----------2-----------0-----------0-----------0----
  42. --5-------5--4--------4--------------0-------0--------------3--------3--3--------3-
  43. -------------------------0--------0----------------------2-------------------------
  44. ------------------------------------------------3----------------------------------
  45.  
  46. C7 Lick F (repeat as many times as you want)
  47.  
  48. --0--------0-------------------4-----------------------------------------------------
  49. -----1----------------5--6--8----------------------------------------------------------
  50. --------3-------5--7------------------------------------------------------------------
  51. ------------------------------------------------------------------------------------
  52. --3--------3------------------------------------------------------------------------
  53. ------------------------------------------------------------------------------------
Advertisement
Add Comment
Please, Sign In to add comment
Advertisement