daily pastebin goal
47%
SHARE
TWEET

Untitled

a guest Jul 12th, 2018 61 Never
Not a member of Pastebin yet? Sign Up, it unlocks many cool features!
  1. verse 1
  2. -----------------------------------------------------------------------
  3. -----------------------------------------------------------------------
  4. -----------------------------------------------------------------------
  5. ---0-2-3-2-0---0-2-3-2--------3-5-7-5-3---3-5-7-5--------5-5-7-8-7-5---
  6. -0--------------------------3------------------------------------------
  7. -----------------------------------------------------------------------
  8.  
  9.  
  10. --------------------------------------------- I listened to the 1st
  11. --------------------------------------------- scene in the movie to  
  12. --------------------------------------------- get this whole tab.
  13. -0-0-2-3--5—7---0-2-3-2-0---5-3-2---7-3-0—3-2 Listen so u no how long
  14. --------------0------------------------------ to hold certain notes.
  15. ---------------------------------------------
  16.  
  17.  
  18. verse 2     basically same as verse 1 except for the ending.
  19.  
  20. -----------------------------------------------------------------------
  21. -----------------------------------------------------------------------
  22. -----------------------------------------------------------------------
  23. ---0-2-3-2-0---0-2-3-2--------3-5-7-5-3---3-5-7-5--------5-5-7-8-7-5---
  24. -0--------------------------3------------------------------------------
  25. -----------------------------------------------------------------------
  26.  
  27.  
  28. -------------------0-1-0----------5-5-2-3-------0-1--------------------
  29. ---------------3-3-------3--1----------------3-3----------1-1-3-4---3-1
  30. ---------0-2-----------------------------------------------------------
  31. -0-0-2-3---------------------------------------------------------------
  32. -----------------------------------------------------------------------
  33. -----------------------------------------------------------------------
RAW Paste Data
We use cookies for various purposes including analytics. By continuing to use Pastebin, you agree to our use of cookies as described in the Cookies Policy. OK, I Understand
 
Top